Glass

glass

tabbed by albert "jujyfruit" huang
drop d tunin(DADGbe)

riff one
e|----------------------------|
b|-10---10-11-----------------|
G|--9----9-10-----------------|
D|----7-------8-xx-7-xxxxx-xx-|
A|--------------xx-7-xxxxx-xx-|
D|--------------xx-7-xxxxx-xx-|

riff two
e|---------------------------------|
b|-10---10--11---------------------|
G|--9----9--10---------------------|
D|----7--------8--xx-xx-8-xxxxx-xx-|
A|----------------xx-xx-8-xxxxx-xx-|
D|----------------xx-xx-8-xxxxx-xx-|

riff three
e|-------------------------|
b|-10---10--11-------------|
G|--9----9--10----2h3-333--|
D|----7--------8--2h3-333--|
A|----------------2h3-333--|
D|-------------------------|

riff 4 (bass i think)
A|-0---0-1---1-0-|
D|---0-----1-----|

fast thing
G|------------------|
D|------11----22----|
A|-00000--2233--33--|

chorus riff
G|----10-10-------10-|
D|-7--10-10--7-7--10-|
A|-7---8--8--7-7---8-|
D|-7---------7-7-----|

NNNNNNNNNNEEEEEEEEEEEEGGGGGGGRRRRRRRRRRRROOOOOOO!!!!!!!!
glass

im thinking of my souls sovereignty
and i know everything you hate in me
fill me up with over-pious badgerings
to throw them up oh one of my favorite things
remember all those lessons fed to me
me the young sponge so ready to agree
years have gone
i recognize the walking dead
now aware that im alive and way ahead
too bad the things that make you mad 
are my favorite things
and im so happy
i see you looking
i know that youre thinking that ill never go anywhere
the things that ive done
and the things that ive seen
i dont really expect you to care